  0
SECTION
  2
HEADER
  9
$ACADVER
  1
AC1015
  9
$ACADMAINTVER
 70
     6
  9
$DWGCODEPAGE
  3
ANSI_1254
  9
$INSBASE
 10
0.0
 20
0.0
 30
0.0
  9
$EXTMIN
 10
0.0
 20
0.0
 30
0.0
  9
$EXTMAX
 10
279.4
 20
215.9
 30
0.0
  9
$LIMMIN
 10
0.0
 20
0.0
  9
$LIMMAX
 10
279.4
 20
215.9
  9
$ORTHOMODE
 70
     0
  9
$REGENMODE
 70
     1
  9
$FILLMODE
 70
     1
  9
$QTEXTMODE
 70
     0
  9
$MIRRTEXT
 70
     1
  9
$LTSCALE
 40
1.0
  9
$ATTMODE
 70
     1
  9
$TEXTSIZE
 40
3.5
  9
$TRACEWID
 40
1.0
  9
$TEXTSTYLE
  7
Standard
  9
$CLAYER
  8
0
  9
$CELTYPE
  6
ByLayer
  9
$CECOLOR
 62
   256
  9
$CELTSCALE
 40
1.0
  9
$DISPSILH
 70
     0
  9
$DIMSCALE
 40
1.0
  9
$DIMASZ
 40
3.5
  9
$DIMEXO
 40
1.0
  9
$DIMDLI
 40
3.75
  9
$DIMRND
 40
0.0
  9
$DIMDLE
 40
0.0
  9
$DIMEXE
 40
1.0
  9
$DIMTP
 40
0.0
  9
$DIMTM
 40
0.0
  9
$DIMTXT
 40
3.5
  9
$DIMCEN
 40
2.5
  9
$DIMTSZ
 40
0.0
  9
$DIMTOL
 70
     0
  9
$DIMLIM
 70
     0
  9
$DIMTIH
 70
     1
  9
$DIMTOH
 70
     1
  9
$DIMSE1
 70
     0
  9
$DIMSE2
 70
     0
  9
$DIMTAD
 70
     1
  9
$DIMZIN
 70
     0
  9
$DIMBLK
  1

  9
$DIMASO
 70
     1
  9
$DIMSHO
 70
     1
  9
$DIMPOST
  1

  9
$DIMAPOST
  1

  9
$DIMALT
 70
     0
  9
$DIMALTD
 70
     3
  9
$DIMALTF
 40
0.0393700787
  9
$DIMLFAC
 40
1.0
  9
$DIMTOFL
 70
     1
  9
$DIMTVP
 40
0.0
  9
$DIMTIX
 70
     0
  9
$DIMSOXD
 70
     0
  9
$DIMSAH
 70
     0
  9
$DIMBLK1
  1

  9
$DIMBLK2
  1

  9
$DIMSTYLE
  2
ISO-25
  9
$DIMCLRD
 70
     0
  9
$DIMCLRE
 70
     0
  9
$DIMCLRT
 70
     0
  9
$DIMTFAC
 40
1.0
  9
$DIMGAP
 40
1.524
  9
$DIMJUST
 70
     0
  9
$DIMSD1
 70
     0
  9
$DIMSD2
 70
     0
  9
$DIMTOLJ
 70
     0
  9
$DIMTZIN
 70
     0
  9
$DIMALTZ
 70
     0
  9
$DIMALTTZ
 70
     0
  9
$DIMUPT
 70
     0
  9
$DIMDEC
 70
     2
  9
$DIMTDEC
 70
     2
  9
$DIMALTU
 70
     2
  9
$DIMALTTD
 70
     3
  9
$DIMTXSTY
  7
Standard
  9
$DIMAUNIT
 70
     0
  9
$DIMADEC
 70
     2
  9
$DIMALTRND
 40
0.0
  9
$DIMAZIN
 70
     0
  9
$DIMDSEP
 70
    44
  9
$DIMATFIT
 70
     3
  9
$DIMFRAC
 70
     0
  9
$DIMLDRBLK
  1

  9
$DIMLUNIT
 70
     2
  9
$DIMLWD
 70
    -2
  9
$DIMLWE
 70
    -2
  9
$DIMTMOVE
 70
     0
  9
$LUNITS
 70
     2
  9
$LUPREC
 70
     2
  9
$SKETCHINC
 40
1.0
  9
$FILLETRAD
 40
10.0
  9
$AUNITS
 70
     0
  9
$AUPREC
 70
     2
  9
$MENU
  1
.
  9
$ELEVATION
 40
0.0
  9
$PELEVATION
 40
0.0
  9
$THICKNESS
 40
0.0
  9
$LIMCHECK
 70
     0
  9
$CHAMFERA
 40
0.0
  9
$CHAMFERB
 40
0.0
  9
$CHAMFERC
 40
0.0
  9
$CHAMFERD
 40
0.0
  9
$SKPOLY
 70
     0
  9
$TDCREATE
 40
2458985.633150625
  9
$TDUCREATE
 40
2458985.508150625
  9
$TDUPDATE
 40
2458985.633150891
  9
$TDUUPDATE
 40
2458985.508150891
  9
$TDINDWG
 40
0.0000000116
  9
$TDUSRTIMER
 40
0.0000000116
  9
$USRTIMER
 70
     1
  9
$ANGBASE
 50
0.0
  9
$ANGDIR
 70
     0
  9
$PDMODE
 70
     0
  9
$PDSIZE
 40
-1.0
  9
$PLINEWID
 40
0.0
  9
$SPLFRAME
 70
     0
  9
$SPLINETYPE
 70
     6
  9
$SPLINESEGS
 70
     8
  9
$HANDSEED
  5
CC
  9
$SURFTAB1
 70
     6
  9
$SURFTAB2
 70
     6
  9
$SURFTYPE
 70
     6
  9
$SURFU
 70
     6
  9
$SURFV
 70
     6
  9
$UCSBASE
  2

  9
$UCSNAME
  2

  9
$UCSORG
 10
0.0
 20
0.0
 30
0.0
  9
$UCSXDIR
 10
1.0
 20
0.0
 30
0.0
  9
$UCSYDIR
 10
0.0
 20
1.0
 30
0.0
  9
$UCSORTHOREF
  2

  9
$UCSORTHOVIEW
 70
     0
  9
$UCSORGTOP
 10
0.0
 20
0.0
 30
0.0
  9
$UCSORGBOTTOM
 10
0.0
 20
0.0
 30
0.0
  9
$UCSORGLEFT
 10
0.0
 20
0.0
 30
0.0
  9
$UCSORGRIGHT
 10
0.0
 20
0.0
 30
0.0
  9
$UCSORGFRONT
 10
0.0
 20
0.0
 30
0.0
  9
$UCSORGBACK
 10
0.0
 20
0.0
 30
0.0
  9
$PUCSBASE
  2

  9
$PUCSNAME
  2

  9
$PUCSORG
 10
0.0
 20
0.0
 30
0.0
  9
$PUCSXDIR
 10
1.0
 20
0.0
 30
0.0
  9
$PUCSYDIR
 10
0.0
 20
1.0
 30
0.0
  9
$PUCSORTHOREF
  2

  9
$PUCSORTHOVIEW
 70
     0
  9
$PUCSORGTOP
 10
0.0
 20
0.0
 30
0.0
  9
$PUCSORGBOTTOM
 10
0.0
 20
0.0
 30
0.0
  9
$PUCSORGLEFT
 10
0.0
 20
0.0
 30
0.0
  9
$PUCSORGRIGHT
 10
0.0
 20
0.0
 30
0.0
  9
$PUCSORGFRONT
 10
0.0
 20
0.0
 30
0.0
  9
$PUCSORGBACK
 10
0.0
 20
0.0
 30
0.0
  9
$USERI1
 70
     0
  9
$USERI2
 70
     0
  9
$USERI3
 70
     0
  9
$USERI4
 70
     0
  9
$USERI5
 70
     0
  9
$USERR1
 40
0.0
  9
$USERR2
 40
0.0
  9
$USERR3
 40
0.0
  9
$USERR4
 40
0.0
  9
$USERR5
 40
0.0
  9
$WORLDVIEW
 70
     1
  9
$SHADEDGE
 70
     3
  9
$SHADEDIF
 70
    70
  9
$TILEMODE
 70
     1
  9
$MAXACTVP
 70
    64
  9
$PINSBASE
 10
0.0
 20
0.0
 30
0.0
  9
$PLIMCHECK
 70
     0
  9
$PEXTMIN
 10
1.0000000000E+20
 20
1.0000000000E+20
 30
1.0000000000E+20
  9
$PEXTMAX
 10
-1.0000000000E+20
 20
-1.0000000000E+20
 30
-1.0000000000E+20
  9
$PLIMMIN
 10
0.0
 20
0.0
  9
$PLIMMAX
 10
420.0
 20
297.0
  9
$UNITMODE
 70
     0
  9
$VISRETAIN
 70
     1
  9
$PLINEGEN
 70
     0
  9
$PSLTSCALE
 70
     1
  9
$TREEDEPTH
 70
  3020
  9
$CMLSTYLE
  2
Standard
  9
$CMLJUST
 70
     0
  9
$CMLSCALE
 40
20.0
  9
$PROXYGRAPHICS
 70
     1
  9
$MEASUREMENT
 70
     1
  9
$CELWEIGHT
370
    -1
  9
$ENDCAPS
280
     0
  9
$JOINSTYLE
280
     0
  9
$LWDISPLAY
290
     1
  9
$INSUNITS
 70
     4
  9
$HYPERLINKBASE
  1

  9
$STYLESHEET
  1

  9
$XEDIT
290
     1
  9
$CEPSNTYPE
380
     0
  9
$PSTYLEMODE
290
     1
  9
$FINGERPRINTGUID
  2
{01904495-3a60-4a92-a3c3-b23d5fd87d1f}
  9
$VERSIONGUID
  2
{FAEB1C32-E019-11D5-929B-00C0DF256EC4}
  9
$EXTNAMES
290
     1
  9
$PSVPSCALE
 40
0.0
  9
$OLESTARTUP
290
     0
  0
ENDSEC
  0
SECTION
  2
CLASSES
  0
CLASS
  1
ACDBDICTIONARYWDFLT
  2
AcDbDictionaryWithDefault
  3
ObjectDBX Classes
 90
        0
280
     0
281
     0
  0
CLASS
  1
VISUALSTYLE
  2
AcDbVisualStyle
  3
ObjectDBX Classes
 90
     4095
280
     0
281
     0
  0
CLASS
  1
MATERIAL
  2
AcDbMaterial
  3
ObjectDBX Classes
 90
     1153
280
     0
281
     0
  0
CLASS
  1
SCALE
  2
AcDbScale
  3
ObjectDBX Classes
 90
     1153
280
     0
281
     0
  0
CLASS
  1
TABLESTYLE
  2
AcDbTableStyle
  3
ObjectDBX Classes
 90
     4095
280
     0
281
     0
  0
CLASS
  1
MLEADERSTYLE
  2
AcDbMLeaderStyle
  3
ACDB_MLEADERSTYLE_CLASS
 90
     4095
280
     0
281
     0
  0
CLASS
  1
SUN
  2
AcDbSun
  3
SCENEOE
 90
     1153
280
     0
281
     0
  0
CLASS
  1
ACDBPLACEHOLDER
  2
AcDbPlaceHolder
  3
ObjectDBX Classes
 90
        0
280
     0
281
     0
  0
CLASS
  1
LAYOUT
  2
AcDbLayout
  3
ObjectDBX Classes
 90
        0
280
     0
281
     0
  0
ENDSEC
  0
SECTION
  2
TABLES
  0
TABLE
  2
VPORT
  5
8
330
0
100
AcDbSymbolTable
 70
     1
  0
VPORT
  5
29
330
8
100
AcDbSymbolTableRecord
100
AcDbViewportTableRecord
  2
*Active
 70
     0
 10
0.0
 20
0.0
 11
1.0
 21
1.0
 12
139.7
 22
107.95
 13
0.0
 23
0.0
 14
10.0
 24
10.0
 15
10.0
 25
10.0
 16
0.0
 26
0.0
 36
1.0
 17
0.0
 27
0.0
 37
0.0
 40
215.9
 41
1.2941176471
 42
50.0
 43
0.0
 44
0.0
 50
0.0
 51
0.0
 71
     0
 72
  2000
 73
     1
 74
     3
 75
     0
 76
     0
 77
     0
 78
     0
281
     0
 65
     1
110
0.0
120
0.0
130
0.0
111
1.0
121
0.0
131
0.0
112
0.0
122
1.0
132
0.0
 79
     0
146
0.0
  0
ENDTAB
  0
TABLE
  2
LTYPE
  5
5
330
0
100
AcDbSymbolTable
 70
     6
  0
LTYPE
  5
14
330
5
100
AcDbSymbolTableRecord
100
AcDbLinetypeTableRecord
  2
ByBlock
 70
     0
  3

 72
    65
 73
     0
 40
0.0
  0
LTYPE
  5
15
330
5
100
AcDbSymbolTableRecord
100
AcDbLinetypeTableRecord
  2
ByLayer
 70
     0
  3

 72
    65
 73
     0
 40
0.0
  0
LTYPE
  5
16
330
5
100
AcDbSymbolTableRecord
100
AcDbLinetypeTableRecord
  2
Continuous
 70
     0
  3
Solid line
 72
    65
 73
     0
 40
0.0
  0
LTYPE
  5
6E
330
5
100
AcDbSymbolTableRecord
100
AcDbLinetypeTableRecord
  2
HIDDEN
 70
     0
  3
Hidden __ __ __ __ __ __ __ __ __ __ __ __ __ __
 72
    65
 73
     2
 40
1.905
 49
1.27
 74
     0
 49
-0.635
 74
     0
  0
LTYPE
  5
6F
330
5
100
AcDbSymbolTableRecord
100
AcDbLinetypeTableRecord
  2
PHANTOM
 70
     0
  3
Phantom ______  __  __  ______  __  __  ______
 72
    65
 73
     6
 40
12.7
 49
6.35
 74
     0
 49
-1.27
 74
     0
 49
1.27
 74
     0
 49
-1.27
 74
     0
 49
1.27
 74
     0
 49
-1.27
 74
     0
  0
LTYPE
  5
70
330
5
100
AcDbSymbolTableRecord
100
AcDbLinetypeTableRecord
  2
CENTER
 70
     0
  3
Center ____ _ ____ _ ____ _ ____ _ ____ _ ____
 72
    65
 73
     4
 40
10.16
 49
6.35
 74
     0
 49
-1.27
 74
     0
 49
1.27
 74
     0
 49
-1.27
 74
     0
  0
LTYPE
  5
71
330
5
100
AcDbSymbolTableRecord
100
AcDbLinetypeTableRecord
  2
CENTERX2
 70
     0
  3
Center (2x) ________  __  ________  __  _____
 72
    65
 73
     4
 40
20.32
 49
12.7
 74
     0
 49
-2.54
 74
     0
 49
2.54
 74
     0
 49
-2.54
 74
     0
  0
LTYPE
  5
72
330
5
100
AcDbSymbolTableRecord
100
AcDbLinetypeTableRecord
  2
DOT2
 70
     0
  3
Dot (.5x) ........................................
 72
    65
 73
     2
 40
0.635
 49
0.0
 74
     0
 49
-0.635
 74
     0
  0
ENDTAB
  0
TABLE
  2
LAYER
  5
2
330
0
100
AcDbSymbolTable
 70
    17
  0
LAYER
  5
10
330
2
100
AcDbSymbolTableRecord
100
AcDbLayerTableRecord
  2
0
 70
     0
 62
     7
  6
Continuous
370
    -3
390
F
  0
LAYER
  5
73
330
2
100
AcDbSymbolTableRecord
100
AcDbLayerTableRecord
  2
FORMAT
 70
     0
 62
     7
  6
Continuous
370
    -3
390
F
  0
LAYER
  5
74
330
2
100
AcDbSymbolTableRecord
100
AcDbLayerTableRecord
  2
YARDIMCI_GEOMETRI
 70
     0
 62
    -6
  6
Continuous
290
     0
370
    -3
390
F
  0
LAYER
  5
75
330
2
100
AcDbSymbolTableRecord
100
AcDbLayerTableRecord
  2
SAYFA_CERCEVESI
 70
     0
 62
     7
  6
Continuous
370
    25
390
F
  0
LAYER
  5
76
330
2
100
AcDbSymbolTableRecord
100
AcDbLayerTableRecord
  2
ANTET
 70
     0
 62
     7
  6
Continuous
370
    -3
390
F
  0
LAYER
  5
77
330
2
100
AcDbSymbolTableRecord
100
AcDbLayerTableRecord
  2
OLCU
 70
     0
 62
   150
  6
Continuous
370
    -3
390
F
  0
LAYER
  5
78
330
2
100
AcDbSymbolTableRecord
100
AcDbLayerTableRecord
  2
METIN
 70
     0
 62
    96
  6
Continuous
370
    -3
390
F
  0
LAYER
  5
79
330
2
100
AcDbSymbolTableRecord
100
AcDbLayerTableRecord
  2
BALON
 70
     0
 62
     5
  6
Continuous
370
    -3
390
F
  0
LAYER
  5
7A
330
2
100
AcDbSymbolTableRecord
100
AcDbLayerTableRecord
  2
VURGU
 70
     0
 62
     7
  6
Continuous
370
    -3
390
F
  0
LAYER
  5
7B
330
2
100
AcDbSymbolTableRecord
100
AcDbLayerTableRecord
  2
SILIK
 70
     0
 62
     7
  6
Continuous
370
    -3
390
F
  0
LAYER
  5
7C
330
2
100
AcDbSymbolTableRecord
100
AcDbLayerTableRecord
  2
MODEL
 70
     0
 62
     7
  6
Continuous
370
    -3
390
F
  0
LAYER
  5
7D
330
2
100
AcDbSymbolTableRecord
100
AcDbLayerTableRecord
  2
DETAYLANDıRMA
 70
     0
 62
   190
  6
Continuous
370
    -3
390
F
  0
LAYER
  5
7E
330
2
100
AcDbSymbolTableRecord
100
AcDbLayerTableRecord
  2
TOLERANS
 70
     0
 62
   230
  6
Continuous
370
    -3
390
F
  0
LAYER
  5
7F
330
2
100
AcDbSymbolTableRecord
100
AcDbLayerTableRecord
  2
MERKEZ_CIZGILERI
 70
     0
 62
    30
  6
Continuous
370
    -3
390
F
  0
LAYER
  5
80
330
2
100
AcDbSymbolTableRecord
100
AcDbLayerTableRecord
  2
KESIT-DETAY_CIZGILERI
 70
     0
 62
     7
  6
Continuous
370
    -3
390
F
  0
LAYER
  5
81
330
2
100
AcDbSymbolTableRecord
100
AcDbLayerTableRecord
  2
\U+041E\U+0421\U+0415\U+0412\U+042B\U+0415
 70
     0
 62
     7
  6
Continuous
370
    -3
390
F
  0
LAYER
  5
82
330
2
100
AcDbSymbolTableRecord
100
AcDbLayerTableRecord
  2
\U+0412\U+041E\U+0414\U+042F\U+041D\U+042B\U+0415_\U+0417\U+041D\U+0410\U+041A\U+0418
 70
     0
 62
    11
  6
Continuous
370
    -3
390
F
  0
ENDTAB
  0
TABLE
  2
STYLE
  5
3
330
0
100
AcDbSymbolTable
 70
     1
  0
STYLE
  5
11
330
3
100
AcDbSymbolTableRecord
100
AcDbTextStyleTableRecord
  2
Standard
 70
     0
 40
0.0
 41
1.0
 50
0.0
 71
     0
 42
3.5
  3
txt
  4

  0
ENDTAB
  0
TABLE
  2
VIEW
  5
6
330
0
100
AcDbSymbolTable
 70
     0
  0
ENDTAB
  0
TABLE
  2
UCS
  5
7
330
0
100
AcDbSymbolTable
 70
     0
  0
ENDTAB
  0
TABLE
  2
APPID
  5
9
330
0
100
AcDbSymbolTable
 70
     1
  0
APPID
  5
12
330
9
100
AcDbSymbolTableRecord
100
AcDbRegAppTableRecord
  2
ACAD
 70
     0
  0
ENDTAB
  0
TABLE
  2
DIMSTYLE
  5
A
330
0
100
AcDbSymbolTable
 70
     1
100
AcDbDimStyleTable
  0
DIMSTYLE
105
27
330
A
100
AcDbSymbolTableRecord
100
AcDbDimStyleTableRecord
  2
ISO-25
 70
     0
 41
2.5
 42
0.625
 43
3.75
 44
1.25
 73
     0
 74
     0
 77
     1
 78
     8
140
2.5
141
2.5
143
0.0393700787
147
0.625
171
     3
172
     1
178
     0
271
     2
272
     2
274
     3
278
    44
283
     0
284
     8
340
11
  0
ENDTAB
  0
TABLE
  2
BLOCK_RECORD
  5
1
330
0
100
AcDbSymbolTable
 70
     2
  0
BLOCK_RECORD
  5
1F
330
1
100
AcDbSymbolTableRecord
100
AcDbBlockTableRecord
  2
*Model_Space
340
22
  0
BLOCK_RECORD
  5
1B
330
1
100
AcDbSymbolTableRecord
100
AcDbBlockTableRecord
  2
*Paper_Space
340
1E
  0
BLOCK_RECORD
  5
23
330
1
100
AcDbSymbolTableRecord
100
AcDbBlockTableRecord
  2
*Paper_Space0
340
26
  0
BLOCK_RECORD
  5
87
330
1
100
AcDbSymbolTableRecord
100
AcDbBlockTableRecord
  2
SW_CENTERMARKSYMBOL_0
340
0
102
{BLKREFS
331
92
102
}
  0
ENDTAB
  0
ENDSEC
  0
SECTION
  2
BLOCKS
  0
BLOCK
  5
20
330
1F
100
AcDbEntity
  8
0
100
AcDbBlockBegin
  2
*Model_Space
 70
     0
 10
0.0
 20
0.0
 30
0.0
  3
*Model_Space
  1

  0
ENDBLK
  5
21
330
1F
100
AcDbEntity
  8
0
100
AcDbBlockEnd
  0
BLOCK
  5
1C
330
1B
100
AcDbEntity
 67
     1
  8
0
100
AcDbBlockBegin
  2
*Paper_Space
 70
     0
 10
0.0
 20
0.0
 30
0.0
  3
*Paper_Space
  1

  0
ENDBLK
  5
1D
330
1B
100
AcDbEntity
 67
     1
  8
0
100
AcDbBlockEnd
  0
BLOCK
  5
24
330
23
100
AcDbEntity
  8
0
100
AcDbBlockBegin
  2
*Paper_Space0
 70
     0
 10
0.0
 20
0.0
 30
0.0
  3
*Paper_Space0
  1

  0
ENDBLK
  5
25
330
23
100
AcDbEntity
  8
0
100
AcDbBlockEnd
  0
BLOCK
  5
88
330
87
100
AcDbEntity
  8
0
100
AcDbBlockBegin
  2
SW_CENTERMARKSYMBOL_0
 70
     0
 10
0.0
 20
0.0
 30
0.0
  3
SW_CENTERMARKSYMBOL_0
  1

  0
LINE
  5
8A
330
87
100
AcDbEntity
  8
FORMAT
 62
     0
100
AcDbLine
 10
0.0
 20
0.0
 30
0.0
 11
0.0
 21
2.5
 31
0.0
  0
LINE
  5
8B
330
87
100
AcDbEntity
  8
FORMAT
 62
     0
100
AcDbLine
 10
0.0
 20
0.0
 30
0.0
 11
-2.5
 21
0.0
 31
0.0
  0
LINE
  5
8C
330
87
100
AcDbEntity
  8
FORMAT
 62
     0
100
AcDbLine
 10
0.0
 20
0.0
 30
0.0
 11
0.0
 21
-2.5
 31
0.0
  0
LINE
  5
8D
330
87
100
AcDbEntity
  8
FORMAT
 62
     0
100
AcDbLine
 10
0.0
 20
0.0
 30
0.0
 11
2.5
 21
0.0
 31
0.0
  0
LINE
  5
8E
330
87
100
AcDbEntity
  8
FORMAT
 62
     0
100
AcDbLine
 10
0.0
 20
5.0
 30
0.0
 11
0.0
 21
96.5
 31
0.0
  0
LINE
  5
8F
330
87
100
AcDbEntity
  8
FORMAT
 62
     0
100
AcDbLine
 10
-5.0
 20
0.0
 30
0.0
 11
-96.5
 21
0.0
 31
0.0
  0
LINE
  5
90
330
87
100
AcDbEntity
  8
FORMAT
 62
     0
100
AcDbLine
 10
0.0
 20
-5.0
 30
0.0
 11
0.0
 21
-96.5
 31
0.0
  0
LINE
  5
91
330
87
100
AcDbEntity
  8
FORMAT
 62
     0
100
AcDbLine
 10
5.0
 20
0.0
 30
0.0
 11
96.5
 21
0.0
 31
0.0
  0
ENDBLK
  5
89
330
87
100
AcDbEntity
  8
0
100
AcDbBlockEnd
  0
ENDSEC
  0
SECTION
  2
ENTITIES
  0
CIRCLE
  5
83
330
1F
100
AcDbEntity
  8
0
  6
Continuous
 62
     7
370
    25
100
AcDbCircle
 10
138.8998424459
 20
112.0076444931
 30
0.0
 40
70.0
  0
CIRCLE
  5
84
330
1F
100
AcDbEntity
  8
0
  6
Continuous
 62
     7
370
    25
100
AcDbCircle
 10
138.8998424459
 20
112.0076444931
 30
0.0
 40
57.3
  0
CIRCLE
  5
85
330
1F
100
AcDbEntity
  8
0
  6
Continuous
 62
     7
370
    25
100
AcDbCircle
 10
138.8998424459
 20
112.0076444931
 30
0.0
 40
77.5
  0
CIRCLE
  5
86
330
1F
100
AcDbEntity
  8
0
  6
Continuous
 62
     7
370
    25
100
AcDbCircle
 10
138.8998424459
 20
112.0076444931
 30
0.0
 40
94.0
  0
INSERT
  5
92
330
1F
100
AcDbEntity
  8
FORMAT
 62
     7
100
AcDbBlockReference
  2
SW_CENTERMARKSYMBOL_0
 10
138.8998424459
 20
112.0076444931
 30
0.0
  0
LINE
  5
93
330
1F
100
AcDbEntity
  8
0
  6
Continuous
 62
     7
370
    25
100
AcDbLine
 10
232.8998424459
 20
244.9660192211
 30
0.0
 11
232.8998424459
 21
269.9660192211
 31
0.0
  0
LINE
  5
94
330
1F
100
AcDbEntity
  8
0
  6
Continuous
 62
     7
370
    25
100
AcDbLine
 10
44.8998424459
 20
269.9660192211
 30
0.0
 11
44.8998424459
 21
244.9660192211
 31
0.0
  0
LINE
  5
95
330
1F
100
AcDbEntity
  8
0
  6
Continuous
 62
     7
370
    25
100
AcDbLine
 10
216.3998424459
 20
269.9660192211
 30
0.0
 11
208.8998424459
 21
306.9660192211
 31
0.0
  0
LINE
  5
96
330
1F
100
AcDbEntity
  8
0
  6
Continuous
 62
     7
370
    25
100
AcDbLine
 10
68.8998424459
 20
306.9660192211
 30
0.0
 11
61.3998424459
 21
269.9660192211
 31
0.0
  0
LINE
  5
97
330
1F
100
AcDbEntity
  8
0
  6
Continuous
 62
     7
370
    25
100
AcDbLine
 10
208.8998424459
 20
306.9660192211
 30
0.0
 11
208.8998424459
 21
434.9660192211
 31
0.0
  0
LINE
  5
98
330
1F
100
AcDbEntity
  8
0
  6
Continuous
 62
     7
370
    25
100
AcDbLine
 10
68.8998424459
 20
434.9660192211
 30
0.0
 11
68.8998424459
 21
306.9660192211
 31
0.0
  0
LINE
  5
99
330
1F
100
AcDbEntity
  8
0
  6
Continuous
 62
     7
370
    25
100
AcDbLine
 10
232.8998424459
 20
244.9660192211
 30
0.0
 11
44.8998424459
 21
244.9660192211
 31
0.0
  0
LINE
  5
9A
330
1F
100
AcDbEntity
  8
0
  6
Continuous
 62
     7
370
    25
100
AcDbLine
 10
232.8998424459
 20
269.9660192211
 30
0.0
 11
44.8998424459
 21
269.9660192211
 31
0.0
  0
LINE
  5
9B
330
1F
100
AcDbEntity
  8
0
  6
Continuous
 62
     7
370
    25
100
AcDbLine
 10
208.8998424459
 20
306.9660192211
 30
0.0
 11
68.8998424459
 21
306.9660192211
 31
0.0
  0
LINE
  5
9C
330
1F
100
AcDbEntity
  8
0
  6
Continuous
 62
     7
370
    25
100
AcDbLine
 10
208.8998424459
 20
434.9660192211
 30
0.0
 11
68.8998424459
 21
434.9660192211
 31
0.0
  0
LINE
  5
9D
330
1F
100
AcDbEntity
  8
0
  6
Continuous
 62
     7
370
    25
100
AcDbLine
 10
4.3513457875
 20
206.0076444931
 30
0.0
 11
-20.6486542125
 21
206.0076444931
 31
0.0
  0
LINE
  5
9E
330
1F
100
AcDbEntity
  8
0
  6
Continuous
 62
     7
370
    25
100
AcDbLine
 10
-20.6486542125
 20
18.0076444931
 30
0.0
 11
4.3513457875
 21
18.0076444931
 31
0.0
  0
LINE
  5
9F
330
1F
100
AcDbEntity
  8
0
  6
Continuous
 62
     7
370
    25
100
AcDbLine
 10
-20.6486542125
 20
189.5076444931
 30
0.0
 11
-57.6486542125
 21
182.0076444931
 31
0.0
  0
LINE
  5
A0
330
1F
100
AcDbEntity
  8
0
  6
Continuous
 62
     7
370
    25
100
AcDbLine
 10
-57.6486542125
 20
42.0076444931
 30
0.0
 11
-20.6486542125
 21
34.5076444931
 31
0.0
  0
LINE
  5
A1
330
1F
100
AcDbEntity
  8
0
  6
Continuous
 62
     7
370
    25
100
AcDbLine
 10
-57.6486542125
 20
182.0076444931
 30
0.0
 11
-185.6486542125
 21
182.0076444931
 31
0.0
  0
LINE
  5
A2
330
1F
100
AcDbEntity
  8
0
  6
Continuous
 62
     7
370
    25
100
AcDbLine
 10
-185.6486542125
 20
42.0076444931
 30
0.0
 11
-57.6486542125
 21
42.0076444931
 31
0.0
  0
LINE
  5
A3
330
1F
100
AcDbEntity
  8
0
  6
Continuous
 62
     7
370
    25
100
AcDbLine
 10
4.3513457875
 20
206.0076444931
 30
0.0
 11
4.3513457875
 21
18.0076444931
 31
0.0
  0
LINE
  5
A4
330
1F
100
AcDbEntity
  8
0
  6
Continuous
 62
     7
370
    25
100
AcDbLine
 10
-20.6486542125
 20
206.0076444931
 30
0.0
 11
-20.6486542125
 21
18.0076444931
 31
0.0
  0
LINE
  5
A5
330
1F
100
AcDbEntity
  8
0
  6
Continuous
 62
     7
370
    25
100
AcDbLine
 10
-57.6486542125
 20
182.0076444931
 30
0.0
 11
-57.6486542125
 21
42.0076444931
 31
0.0
  0
LINE
  5
A6
330
1F
100
AcDbEntity
  8
0
  6
Continuous
 62
     7
370
    25
100
AcDbLine
 10
-185.6486542125
 20
182.0076444931
 30
0.0
 11
-185.6486542125
 21
42.0076444931
 31
0.0
  0
LINE
  5
A7
330
1F
100
AcDbEntity
  8
0
  6
Continuous
 62
     7
370
    25
100
AcDbLine
 10
276.7090996929
 20
18.0076444931
 30
0.0
 11
301.7090996929
 21
18.0076444931
 31
0.0
  0
LINE
  5
A8
330
1F
100
AcDbEntity
  8
0
  6
Continuous
 62
     7
370
    25
100
AcDbLine
 10
301.7090996929
 20
206.0076444931
 30
0.0
 11
276.7090996929
 21
206.0076444931
 31
0.0
  0
LINE
  5
A9
330
1F
100
AcDbEntity
  8
0
  6
Continuous
 62
     7
370
    25
100
AcDbLine
 10
301.7090996929
 20
34.5076444931
 30
0.0
 11
338.7090996929
 21
42.0076444931
 31
0.0
  0
LINE
  5
AA
330
1F
100
AcDbEntity
  8
0
  6
Continuous
 62
     7
370
    25
100
AcDbLine
 10
338.7090996929
 20
182.0076444931
 30
0.0
 11
301.7090996929
 21
189.5076444931
 31
0.0
  0
LINE
  5
AB
330
1F
100
AcDbEntity
  8
0
  6
Continuous
 62
     7
370
    25
100
AcDbLine
 10
338.7090996929
 20
42.0076444931
 30
0.0
 11
466.7090996929
 21
42.0076444931
 31
0.0
  0
LINE
  5
AC
330
1F
100
AcDbEntity
  8
0
  6
Continuous
 62
     7
370
    25
100
AcDbLine
 10
466.7090996929
 20
182.0076444931
 30
0.0
 11
338.7090996929
 21
182.0076444931
 31
0.0
  0
LINE
  5
AD
330
1F
100
AcDbEntity
  8
0
  6
Continuous
 62
     7
370
    25
100
AcDbLine
 10
276.7090996929
 20
112.0076444931
 30
0.0
 11
276.7090996929
 21
206.0076444931
 31
0.0
  0
LINE
  5
AE
330
1F
100
AcDbEntity
  8
0
  6
Continuous
 62
     7
370
    25
100
AcDbLine
 10
276.7090996929
 20
18.0076444931
 30
0.0
 11
276.7090996929
 21
112.0076444931
 31
0.0
  0
LINE
  5
AF
330
1F
100
AcDbEntity
  8
0
  6
Continuous
 62
     7
370
    25
100
AcDbLine
 10
301.7090996929
 20
112.0076444931
 30
0.0
 11
301.7090996929
 21
206.0076444931
 31
0.0
  0
LINE
  5
B0
330
1F
100
AcDbEntity
  8
0
  6
Continuous
 62
     7
370
    25
100
AcDbLine
 10
301.7090996929
 20
18.0076444931
 30
0.0
 11
301.7090996929
 21
112.0076444931
 31
0.0
  0
LINE
  5
B1
330
1F
100
AcDbEntity
  8
0
  6
Continuous
 62
     7
370
    25
100
AcDbLine
 10
338.7090996929
 20
112.0076444931
 30
0.0
 11
338.7090996929
 21
182.0076444931
 31
0.0
  0
LINE
  5
B2
330
1F
100
AcDbEntity
  8
0
  6
Continuous
 62
     7
370
    25
100
AcDbLine
 10
338.7090996929
 20
42.0076444931
 30
0.0
 11
338.7090996929
 21
112.0076444931
 31
0.0
  0
LINE
  5
B3
330
1F
100
AcDbEntity
  8
0
  6
Continuous
 62
     7
370
    25
100
AcDbLine
 10
466.7090996929
 20
112.0076444931
 30
0.0
 11
466.7090996929
 21
182.0076444931
 31
0.0
  0
LINE
  5
B4
330
1F
100
AcDbEntity
  8
0
  6
Continuous
 62
     7
370
    25
100
AcDbLine
 10
466.7090996929
 20
42.0076444931
 30
0.0
 11
466.7090996929
 21
112.0076444931
 31
0.0
  0
LINE
  5
B5
330
1F
100
AcDbEntity
  8
0
  6
Continuous
 62
     7
370
    25
100
AcDbLine
 10
44.8998424459
 20
-29.5445395641
 30
0.0
 11
44.8998424459
 21
-54.5445395641
 31
0.0
  0
LINE
  5
B6
330
1F
100
AcDbEntity
  8
0
  6
Continuous
 62
     7
370
    25
100
AcDbLine
 10
232.8998424459
 20
-54.5445395641
 30
0.0
 11
232.8998424459
 21
-29.5445395641
 31
0.0
  0
LINE
  5
B7
330
1F
100
AcDbEntity
  8
0
  6
Continuous
 62
     7
370
    25
100
AcDbLine
 10
61.3998424459
 20
-54.5445395641
 30
0.0
 11
68.8998424459
 21
-91.5445395641
 31
0.0
  0
LINE
  5
B8
330
1F
100
AcDbEntity
  8
0
  6
Continuous
 62
     7
370
    25
100
AcDbLine
 10
208.8998424459
 20
-91.5445395641
 30
0.0
 11
216.3998424459
 21
-54.5445395641
 31
0.0
  0
LINE
  5
B9
330
1F
100
AcDbEntity
  8
0
  6
Continuous
 62
     7
370
    25
100
AcDbLine
 10
68.8998424459
 20
-91.5445395641
 30
0.0
 11
68.8998424459
 21
-219.5445395641
 31
0.0
  0
LINE
  5
BA
330
1F
100
AcDbEntity
  8
0
  6
Continuous
 62
     7
370
    25
100
AcDbLine
 10
208.8998424459
 20
-219.5445395641
 30
0.0
 11
208.8998424459
 21
-91.5445395641
 31
0.0
  0
LINE
  5
BB
330
1F
100
AcDbEntity
  8
0
  6
Continuous
 62
     7
370
    25
100
AcDbLine
 10
44.8998424459
 20
-29.5445395641
 30
0.0
 11
232.8998424459
 21
-29.5445395641
 31
0.0
  0
LINE
  5
BC
330
1F
100
AcDbEntity
  8
0
  6
Continuous
 62
     7
370
    25
100
AcDbLine
 10
44.8998424459
 20
-54.5445395641
 30
0.0
 11
232.8998424459
 21
-54.5445395641
 31
0.0
  0
LINE
  5
BD
330
1F
100
AcDbEntity
  8
0
  6
Continuous
 62
     7
370
    25
100
AcDbLine
 10
68.8998424459
 20
-91.5445395641
 30
0.0
 11
208.8998424459
 21
-91.5445395641
 31
0.0
  0
LINE
  5
BE
330
1F
100
AcDbEntity
  8
0
  6
Continuous
 62
     7
370
    25
100
AcDbLine
 10
68.8998424459
 20
-219.5445395641
 30
0.0
 11
208.8998424459
 21
-219.5445395641
 31
0.0
  0
LINE
  5
BF
330
1F
100
AcDbEntity
  8
0
  6
Continuous
 62
     7
370
    25
100
AcDbLine
 10
339.7759617165
 20
-64.8105444886
 30
0.0
 11
280.0389519334
 21
-123.1156973595
 31
0.0
  0
LINE
  5
C0
330
1F
100
AcDbEntity
  8
0
  6
Continuous
 62
     7
370
    25
100
AcDbLine
 10
377.8258941445
 20
-223.3040895664
 30
0.0
 11
437.5629039276
 21
-164.9989366955
 31
0.0
  0
LINE
  5
C1
330
1F
100
AcDbEntity
  8
0
  6
Continuous
 62
     7
370
    25
100
AcDbLine
 10
343.4221216469
 20
-53.820946568
 30
0.0
 11
335.2378288829
 21
-69.2399012571
 31
0.0
  0
LINE
  5
C2
330
1F
100
AcDbEntity
  8
0
  6
Continuous
 62
     7
370
    25
100
AcDbLine
 10
433.024771094
 20
-169.428293464
 30
0.0
 11
448.6377115135
 21
-161.620419028
 31
0.0
  0
LINE
  5
C3
330
1F
100
AcDbEntity
  8
0
  6
Continuous
 62
     7
370
    25
100
AcDbLine
 10
351.9476000225
 20
-19.393833117
 30
0.0
 11
340.2802152993
 21
-30.7815582871
 31
0.0
  0
LINE
  5
C4
330
1F
100
AcDbEntity
  8
0
  6
Continuous
 62
     7
370
    25
100
AcDbLine
 10
471.5941091256
 20
-165.3202563935
 30
0.0
 11
483.2614938489
 21
-153.9325312234
 31
0.0
  0
LWPOLYLINE
  5
C5
330
1F
100
AcDbEntity
  8
0
  6
Continuous
 62
     7
370
    25
100
AcDbPolyline
 90
      112
 70
   128
 43
0.0
 10
267.0231545216
 20
-156.3842808351
 10
267.1223115472
 20
-153.0166298363
 10
267.4194649941
 20
-149.7136639486
 10
267.9136629902
 20
-146.4859635676
 10
268.6033224705
 20
-143.3438679906
 10
269.4862342476
 20
-140.2974422971
 10
270.5595700889
 20
-137.356445107
 10
271.8198917762
 20
-134.5302973209
 10
273.2631621192
 20
-131.8280519422
 10
274.8847578878
 20
-129.2583650774
 10
276.6794846219
 20
-126.8294682084
 10
278.6415932707
 20
-124.549141824
 10
280.7647986087
 20
-122.4246904972
 10
283.0422993691
 20
-120.4629194859
 10
285.4668000304
 20
-118.6701129341
 10
288.030534186
 20
-117.0520137418
 10
290.7252894224
 20
-115.6138051685
 10
293.5424336264
 20
-114.3600942297
 10
296.4729426356
 20
-113.2948969397
 10
299.5074291463
 20
-112.4216254464
 10
302.6361727833
 20
-111.7430771017
 10
305.8491512376
 20
-111.2614255005
 10
309.1360723705
 20
-110.9782135182
 10
312.4864071827
 20
-110.894348368
 10
315.8894235418
 20
-111.0100986954
 10
319.3342205603
 20
-111.3250937171
 10
322.8097635151
 20
-111.8383244091
 10
326.3049191941
 20
-112.5481467388
 10
329.8084915601
 20
-113.4522869313
 10
333.3092576145
 20
-114.547848753
 10
336.7960033482
 20
-115.831322789
 10
340.2575596635
 20
-117.298597685
 10
343.682838152
 20
-118.9449733174
 10
347.060866614
 20
-120.7651758485
 10
350.3808242059
 20
-122.7533746209
 10
353.6320761027
 20
-124.9032008345
 10
356.8042075645
 20
-127.2077679479
 10
359.8870572977
 20
-129.6596937378
 10
362.8707500054
 20
-132.2511239468
 10
365.7457280202
 20
-134.9737574425
 10
368.5027819208
 20
-137.8188728092
 10
371.1330800325
 20
-140.7773562846
 10
373.6281967174
 20
-143.8397309541
 10
375.9801393645
 20
-146.9961871086
 10
378.1813739925
 20
-150.2366136672
 10
380.2248493833
 20
-153.550630567
 10
382.1040196691
 20
-156.9276220126
 10
383.8128653009
 20
-160.3567704823
 10
385.3459123311
 20
-163.8270913798
 10
386.6982499479
 20
-167.3274682211
 10
387.8655462061
 20
-170.8466882439
 10
388.8440619038
 20
-174.3734783254
 10
389.6306625605
 20
-177.8965410938
 10
390.2228284569
 20
-181.4045911169
 10
390.6186627072
 20
-184.886391053
 10
390.8168973351
 20
-188.330787647
 10
390.8168973351
 20
-191.7267474585
 10
390.6186627072
 20
-195.0633922042
 10
390.2228284569
 20
-198.3300336052
 10
389.6306625605
 20
-201.5162076242
 10
388.8440619038
 20
-204.6117079853
 10
387.8655462061
 20
-207.6066188676
 10
386.6982499479
 20
-210.4913466686
 10
385.3459123311
 20
-213.2566507357
 10
383.8128653009
 20
-215.893672966
 10
382.1040196691
 20
-218.3939661825
 10
380.2248493833
 20
-220.7495211923
 10
378.1813739925
 20
-222.9527924423
 10
375.9801393645
 20
-224.9967221907
 10
373.6281967174
 20
-226.8747631143
 10
371.1330800325
 20
-228.5808992817
 10
368.5027819208
 20
-230.1096654245
 10
365.7457280202
 20
-231.4561644438
 10
362.8707500054
 20
-232.6160830973
 10
359.8870572977
 20
-233.585705816
 10
356.8042075644
 20
-234.3619266059
 10
353.6320761027
 20
-234.9422589978
 10
350.3808242059
 20
-235.3248440121
 10
347.060866614
 20
-235.5084561137
 10
343.682838152
 20
-235.4925071377
 10
340.2575596635
 20
-235.2770481734
 10
336.7960033482
 20
-234.8627694008
 10
333.3092576145
 20
-234.2509978798
 10
329.8084915601
 20
-233.443693299
 10
326.3049191941
 20
-232.4434416983
 10
322.8097635151
 20
-231.2534471851
 10
319.3342205603
 20
-229.8775216707
 10
315.8894235418
 20
-228.3200726592
 10
312.4864071827
 20
-226.5860891295
 10
309.1360723705
 20
-224.6811255534
 10
305.8491512376
 20
-222.6112841036
 10
302.6361727833
 20
-220.3831951063
 10
299.5074291463
 20
-218.0039958022
 10
296.4729426356
 20
-215.4813074841
 10
293.5424336264
 20
-212.823211083
 10
290.7252894224
 20
-210.0382212832
 10
288.030534186
 20
-207.1352592466
 10
285.4668000304
 20
-204.1236240357
 10
283.0422993691
 20
-201.012962826
 10
280.7647986087
 20
-197.8132400032
 10
278.6415932707
 20
-194.5347052442
 10
276.6794846219
 20
-191.1878606841
 10
274.8847578878
 20
-187.7834272751
 10
273.2631621192
 20
-184.3323104437
 10
271.8198917762
 20
-180.8455651577
 10
270.5595700889
 20
-177.3343605132
 10
269.4862342476
 20
-173.8099439573
 10
268.6033224705
 20
-170.2836052588
 10
267.9136629902
 20
-166.7666403436
 10
267.4194649941
 20
-163.2703151107
 10
267.1223115472
 20
-159.8058293437
 10
267.0231545216
 20
-156.3842808351
  0
LWPOLYLINE
  5
C6
330
1F
100
AcDbEntity
  8
0
  6
Continuous
 62
     7
370
    25
100
AcDbPolyline
 90
      101
 70
   128
 43
0.0
 10
278.2552646669
 20
-159.4369276976
 10
278.3552644628
 20
-156.3801060377
 10
278.6548691972
 20
-153.3897038599
 10
279.1528964669
 20
-150.4775229156
 10
279.8473807859
 20
-147.6550562523
 10
280.7355813419
 20
-144.9334428567
 10
281.813992813
 20
-142.3234236933
 10
283.0783592018
 20
-139.8352993154
 10
284.5236906319
 20
-137.4788892131
 10
286.1442830403
 20
-135.2634930608
 10
287.9337406893
 20
-133.1978540147
 10
289.885001407
 20
-131.2901242086
 10
291.9903644588
 20
-129.5478325804
 10
294.2415209387
 20
-127.9778551592
 10
296.6295865603
 20
-126.5863879287
 10
299.1451367198
 20
-125.3789223742
 10
301.7782436898
 20
-124.3602238107
 10
304.5185158002
 20
-123.5343125761
 10
307.3551384488
 20
-122.9044481646
 10
310.2769167819
 20
-122.4731163633
 10
313.2723198754
 20
-122.2420194419
 10
316.3295262416
 20
-122.2120694341
 10
319.4364704837
 20
-122.3833845391
 10
322.5808909124
 20
-122.7552886545
 10
325.7503779365
 20
-123.3263140444
 10
328.932423039
 20
-124.0942071328
 10
332.1144681414
 20
-125.0559373962
 10
335.2839551656
 20
-126.2077093248
 10
338.4283755942
 20
-127.5449774009
 10
341.5353198364
 20
-129.0624640384
 10
344.5925262026
 20
-130.7541804108
 10
347.5879292961
 20
-132.6134500864
 10
350.5097076292
 20
-134.6329353773
 10
353.3463302778
 20
-136.8046662976
 10
356.0866023882
 20
-139.1200720176
 10
358.7197093582
 20
-141.5700146887
 10
361.2352595177
 20
-144.1448255064
 10
363.6233251393
 20
-146.8343428687
 10
365.8744816191
 20
-149.6279524794
 10
367.9798446709
 20
-152.5146292377
 10
369.9311053887
 20
-155.482980749
 10
371.7205630377
 20
-158.5212922862
 10
373.3411554461
 20
-161.6175730216
 10
374.7864868762
 20
-164.7596033498
 10
376.050853265
 20
-167.9349831125
 10
377.1292647361
 20
-171.1311805364
 10
378.0174652921
 20
-174.3355816907
 10
378.7119496111
 20
-177.5355402677
 10
379.2099768808
 20
-180.718427493
 10
379.5095816151
 20
-183.8716819649
 10
379.6095814111
 20
-186.9828592284
 10
379.5095816151
 20
-190.0396808883
 10
379.2099768808
 20
-193.030083066
 10
378.7119496111
 20
-195.9422640104
 10
378.0174652921
 20
-198.7647306736
 10
377.1292647361
 20
-201.4863440693
 10
376.050853265
 20
-204.0963632327
 10
374.7864868762
 20
-206.5844876106
 10
373.3411554461
 20
-208.9408977128
 10
371.7205630377
 20
-211.1562938652
 10
369.9311053887
 20
-213.2219329113
 10
367.9798446709
 20
-215.1296627174
 10
365.8744816191
 20
-216.8719543456
 10
363.6233251393
 20
-218.4419317667
 10
361.2352595177
 20
-219.8333989973
 10
358.7197093582
 20
-221.0408645518
 10
356.0866023882
 20
-222.0595631152
 10
353.3463302778
 20
-222.8854743499
 10
350.5097076292
 20
-223.5153387614
 10
347.5879292961
 20
-223.9466705626
 10
344.5925262026
 20
-224.1777674841
 10
341.5353198364
 20
-224.2077174918
 10
338.4283755942
 20
-224.0364023868
 10
335.2839551656
 20
-223.6644982715
 10
332.1144681414
 20
-223.0934728815
 10
328.932423039
 20
-222.3255797932
 10
325.7503779365
 20
-221.3638495298
 10
322.5808909124
 20
-220.2120776012
 10
319.4364704837
 20
-218.8748095251
 10
316.3295262416
 20
-217.3573228876
 10
313.2723198754
 20
-215.6656065152
 10
310.2769167819
 20
-213.8063368396
 10
307.3551384488
 20
-211.7868515487
 10
304.5185158002
 20
-209.6151206284
 10
301.7782436898
 20
-207.2997149084
 10
299.1451367198
 20
-204.8497722373
 10
296.6295865603
 20
-202.2749614196
 10
294.2415209387
 20
-199.5854440572
 10
291.9903644588
 20
-196.7918344465
 10
289.885001407
 20
-193.9051576883
 10
287.9337406893
 20
-190.936806177
 10
286.1442830403
 20
-187.8984946398
 10
284.5236906319
 20
-184.8022139044
 10
283.0783592018
 20
-181.6601835762
 10
281.813992813
 20
-178.4848038135
 10
280.7355813419
 20
-175.2886063895
 10
279.8473807859
 20
-172.0842052353
 10
279.1528964669
 20
-168.8842466583
 10
278.6548691972
 20
-165.7013594329
 10
278.3552644628
 20
-162.5481049611
 10
278.2552646669
 20
-159.4369276976
  0
LWPOLYLINE
  5
C7
330
1F
100
AcDbEntity
  8
0
  6
Continuous
 62
     7
370
    25
100
AcDbPolyline
 90
       58
 70
   128
 43
0.0
 10
339.7759617165
 20
-64.8105444886
 10
340.5018083918
 20
-64.1195376262
 10
342.7793091522
 20
-62.1577666149
 10
345.2038098134
 20
-60.3649600632
 10
347.767543969
 20
-58.7468608709
 10
350.4622992055
 20
-57.3086522975
 10
353.2794434094
 20
-56.0549413588
 10
356.2099524186
 20
-54.9897440687
 10
359.2444389293
 20
-54.1164725754
 10
362.3731825664
 20
-53.4379242307
 10
365.5861610207
 20
-52.9562726296
 10
368.8730821536
 20
-52.6730606472
 10
372.2234169658
 20
-52.5891954971
 10
375.6264333248
 20
-52.7049458244
 10
379.0712303434
 20
-53.0199408461
 10
382.5467732981
 20
-53.5331715382
 10
386.0419289772
 20
-54.2429938679
 10
389.5455013431
 20
-55.1471340604
 10
393.0462673975
 20
-56.242695882
 10
396.5330131312
 20
-57.526169918
 10
399.9945694466
 20
-58.9934448141
 10
403.419847935
 20
-60.6398204464
 10
406.797876397
 20
-62.4600229775
 10
410.1178339889
 20
-64.4482217499
 10
413.3690858858
 20
-66.5980479636
 10
416.5412173475
 20
-68.902615077
 10
419.6240670807
 20
-71.3545408669
 10
422.6077597884
 20
-73.9459710758
 10
425.4827378032
 20
-76.6686045716
 10
428.2397917039
 20
-79.5137199383
 10
430.8700898156
 20
-82.4722034136
 10
433.3652065005
 20
-85.5345780832
 10
435.7171491476
 20
-88.6910342376
 10
437.9183837756
 20
-91.9314607963
 10
439.9618591663
 20
-95.245477696
 10
441.8410294521
 20
-98.6224691416
 10
443.549875084
 20
-102.0516176113
 10
445.0829221142
 20
-105.5219385089
 10
446.4352597309
 20
-109.0223153502
 10
447.6025559891
 20
-112.5415353729
 10
448.5810716869
 20
-116.0683254544
 10
449.3676723435
 20
-119.5913882228
 10
449.95983824
 20
-123.099438246
 10
450.3556724903
 20
-126.581238182
 10
450.5539071181
 20
-130.0256347761
 10
450.5539071181
 20
-133.4215945875
 10
450.3556724903
 20
-136.7582393333
 10
449.95983824
 20
-140.0248807342
 10
449.3676723435
 20
-143.2110547532
 10
448.5810716869
 20
-146.3065551143
 10
447.6025559891
 20
-149.3014659966
 10
446.4352597309
 20
-152.1861937977
 10
445.0829221142
 20
-154.9514978647
 10
443.549875084
 20
-157.5885200951
 10
441.8410294521
 20
-160.0888133116
 10
439.9618591663
 20
-162.4443683213
 10
437.9183837756
 20
-164.6476395714
 10
437.5629039276
 20
-164.9989366955
  0
LWPOLYLINE
  5
C8
330
1F
100
AcDbEntity
  8
0
  6
Continuous
 62
     7
370
    25
100
AcDbPolyline
 90
       70
 70
   128
 43
0.0
 10
343.4221216469
 20
-53.820946568
 10
343.6235967782
 20
-53.4454711362
 10
345.2458771971
 20
-50.6845397411
 10
347.043146302
 20
-48.0601778456
 10
349.0102221008
 20
-45.5799521644
 10
351.1414330046
 20
-43.2510138303
 10
353.4306341808
 20
-41.0800777753
 10
355.8712252698
 20
-39.0734033701
 10
358.4561694157
 20
-37.2367763764
 10
361.1780135553
 20
-35.5754922653
 10
364.0289099073
 20
-34.0943409491
 10
367.0006385996
 20
-32.7975929702
 10
370.084631369
 20
-31.688987189
 10
373.2719962661
 20
-30.7717200028
 10
376.5535432926
 20
-30.0484361303
 10
379.9198108991
 20
-29.5212209862
 10
383.3610932646
 20
-29.1915946684
 10
386.8674682812
 20
-29.0605075746
 10
390.428826162
 20
-29.1283376631
 10
394.0348985903
 20
-29.394889362
 10
397.6752883257
 20
-29.8593941339
 10
401.3394991824
 20
-30.5205126912
 10
405.0169662918
 20
-31.376338858
 10
408.6970865642
 20
-32.4244050659
 10
412.3692492602
 20
-33.6616894687
 10
416.0228665842
 20
-35.0846246551
 10
419.6474042116
 20
-36.6891079347
 10
423.2324116622
 20
-38.4705131669
 10
426.7675524313
 20
-40.4237040991
 10
430.242633793
 20
-42.5430491763
 10
433.6476361881
 20
-44.822437778
 10
436.9727421133
 20
-47.2552978369
 10
440.2083644274
 20
-49.8346147874
 10
443.3451739937
 20
-52.5529517912
 10
446.3741265782
 20
-55.4024711791
 10
449.2864889264
 20
-58.3749570488
 10
452.0738639438
 20
-61.4618389542
 10
454.7282149065
 20
-64.6542166156
 10
457.2418886338
 20
-67.9428855819
 10
459.6076375534
 20
-71.318363769
 10
461.8186405989
 20
-74.7709187995
 10
463.868522876
 20
-78.2905960635
 10
465.7513740436
 20
-81.8672474203
 10
467.4617653542
 20
-85.4905604582
 10
468.994765307
 20
-89.1500882276
 10
470.3459538662
 20
-92.8352793627
 10
471.5114352055
 20
-96.5355085034
 10
472.4878489405
 20
-100.2401069313
 10
473.2723798175
 20
-103.9383933301
 10
473.8627658309
 20
-107.6197045826
 10
474.2573047451
 20
-111.2734265156
 10
474.4548590023
 20
-114.8890245028
 10
474.4548590023
 20
-118.4560738394
 10
474.2573047451
 20
-121.9642897986
 10
473.8627658309
 20
-125.4035572857
 10
473.2723798175
 20
-128.7639600022
 10
472.4878489405
 20
-132.0358090371
 10
471.5114352055
 20
-135.2096708027
 10
470.3459538662
 20
-138.2763942339
 10
468.994765307
 20
-141.2271371732
 10
467.4617653542
 20
-144.0533918647
 10
465.7513740436
 20
-146.7470094846
 10
463.868522876
 20
-149.3002236359
 10
461.8186405989
 20
-151.7056727414
 10
459.6076375534
 20
-153.9564212686
 10
457.2418886338
 20
-156.0459797267
 10
454.7282149065
 20
-157.9683233778
 10
452.0738639438
 20
-159.7179096076
 10
449.2864889264
 20
-161.289693906
 10
448.6377115135
 20
-161.620419028
  0
LWPOLYLINE
  5
C9
330
1F
100
AcDbEntity
  8
0
  6
Continuous
 62
     7
370
    25
100
AcDbPolyline
 90
       66
 70
   128
 43
0.0
 10
351.9476000225
 20
-19.393833117
 10
353.3400883349
 20
-18.0820485201
 10
356.0053502968
 20
-15.8118330355
 10
358.8190101189
 20
-13.7123046569
 10
361.7742894482
 20
-11.7885213319
 10
364.8640687579
 20
-10.0451176232
 10
368.0809044991
 20
-8.4862935429
 10
371.4170470327
 20
-7.1158044348
 10
374.8644592991
 20
-5.9369519272
 10
378.4148361801
 20
-4.952575979
 10
382.059624507
 20
-4.1650480381
 10
385.7900436655
 20
-3.5762653283
 10
389.5971067489
 20
-3.1876462788
 10
393.4716422088
 20
-3.0001271068
 10
397.4043159501
 20
-3.0141595625
 10
401.3856538171
 20
-3.2297098405
 10
405.4060644183
 20
-3.6462586611
 10
409.4558622323
 20
-4.262802522
 10
413.5252909415
 20
-5.0778561148
 10
417.6045469357
 20
-6.0894559042
 10
421.6838029299
 20
-7.2951648575
 10
425.7532316391
 20
-8.6920783164
 10
429.8030294531
 20
-10.2768309939
 10
433.8234400543
 20
-12.045605082
 10
437.8047779213
 20
-13.9941394491
 10
441.7374516626
 20
-16.1177399052
 10
445.6119871225
 20
-18.4112905107
 10
449.4190502059
 20
-20.8692659014
 10
453.1494693643
 20
-23.4857445992
 10
456.7942576913
 20
-26.2544232778
 10
460.3446345723
 20
-29.1686319478
 10
463.7920468387
 20
-32.2213500252
 10
467.1281893723
 20
-35.4052232448
 10
470.3450251135
 20
-38.7125813771
 10
473.4348044232
 20
-42.1354567067
 10
476.3900837525
 20
-45.6656032271
 10
479.2037435746
 20
-49.2945165062
 10
481.8690055365
 20
-53.0134541739
 10
484.3794487888
 20
-56.8134569837
 10
486.7290254537
 20
-60.6853703961
 10
488.9120751952
 20
-64.6198666324
 10
490.9233388554
 20
-68.6074671466
 10
492.7579711239
 20
-72.6385654598
 10
494.4115522109
 20
-76.703450303
 10
495.8800984946
 20
-80.7923290127
 10
497.1600721185
 20
-84.8953511219
 10
498.2483895141
 20
-89.0026320909
 10
499.1424288292
 20
-93.1042771201
 10
499.840036245
 20
-97.1904049874
 10
500.3395311641
 20
-101.2511718529
 10
500.6397102595
 20
-105.2767949735
 10
500.7398503734
 20
-109.2575762705
 10
500.6397102595
 20
-113.183925693
 10
500.3395311641
 20
-117.0463843215
 10
499.840036245
 20
-120.8356471547
 10
499.1424288292
 20
-124.5425855266
 10
498.2483895141
 20
-128.158269098
 10
497.1600721185
 20
-131.6739873705
 10
495.8800984946
 20
-135.0812706707
 10
494.4115522109
 20
-138.3719105548
 10
492.7579711239
 20
-141.5379795831
 10
490.9233388554
 20
-144.571850418
 10
488.9120751952
 20
-147.4662141988
 10
486.7290254537
 20
-150.2140981498
 10
484.3794487888
 20
-152.8088823778
 10
483.2614938489
 20
-153.9325312234
  0
LWPOLYLINE
  5
CA
330
1F
100
AcDbEntity
  8
0
  6
Continuous
 62
     7
370
    25
100
AcDbPolyline
 90
       94
 70
   128
 43
0.0
 10
322.8018587748
 20
-75.45651324
 10
322.9019988887
 20
-71.5301638174
 10
323.202177984
 20
-67.667705189
 10
323.7016729031
 20
-63.8784423557
 10
324.3992803189
 20
-60.1715039838
 10
325.2933196341
 20
-56.5558204124
 10
326.3816370296
 20
-53.04010214
 10
327.6616106535
 20
-49.6328188397
 10
329.1301569373
 20
-46.3421789556
 10
330.7837380242
 20
-43.1761099273
 10
332.6183702927
 20
-40.1422390925
 10
334.6296339529
 20
-37.2478753116
 10
336.8126836945
 20
-34.4999913606
 10
339.1622603594
 20
-31.9052071327
 10
341.6727036116
 20
-29.4697736902
 10
344.3379655736
 20
-27.1995582056
 10
347.1516253957
 20
-25.100029827
 10
350.1069047249
 20
-23.1762465021
 10
353.1966840347
 20
-21.4328427933
 10
356.4135197759
 20
-19.874018713
 10
359.7496623094
 20
-18.5035296049
 10
363.1970745758
 20
-17.3246770973
 10
366.7474514569
 20
-16.3403011491
 10
370.3922397838
 20
-15.5527732082
 10
374.1226589422
 20
-14.9639904984
 10
377.9297220256
 20
-14.5753714489
 10
381.8042574856
 20
-14.3878522769
 10
385.7369312268
 20
-14.4018847326
 10
389.7182690939
 20
-14.6174350106
 10
393.738679695
 20
-15.0339838313
 10
397.7884775091
 20
-15.6505276921
 10
401.8579062183
 20
-16.4655812849
 10
405.9371622124
 20
-17.4771810743
 10
410.0164182066
 20
-18.6828900276
 10
414.0858469158
 20
-20.0798034865
 10
418.1356447298
 20
-21.664556164
 10
422.156055331
 20
-23.4333302521
 10
426.137393198
 20
-25.3818646192
 10
430.0700669393
 20
-27.5054650753
 10
433.9446023993
 20
-29.7990156808
 10
437.7516654827
 20
-32.2569910715
 10
441.4820846411
 20
-34.8734697693
 10
445.126872968
 20
-37.6421484479
 10
448.6772498491
 20
-40.5563571179
 10
452.1246621155
 20
-43.6090751953
 10
455.460804649
 20
-46.7929484149
 10
458.6776403902
 20
-50.1003065472
 10
461.7674196999
 20
-53.5231818768
 10
464.7226990292
 20
-57.0533283972
 10
467.5363588513
 20
-60.6822416763
 10
470.2016208133
 20
-64.401179344
 10
472.7120640655
 20
-68.2011821539
 10
475.0616407304
 20
-72.0730955662
 10
477.244690472
 20
-76.0075918025
 10
479.2559541322
 20
-79.9951923167
 10
481.0905864007
 20
-84.0262906299
 10
482.7441674876
 20
-88.0911754731
 10
484.2127137714
 20
-92.1800541828
 10
485.4926873953
 20
-96.283076292
 10
486.5810047908
 20
-100.390357261
 10
487.475044106
 20
-104.4920022902
 10
488.1726515218
 20
-108.5781301575
 10
488.6721464409
 20
-112.638897023
 10
488.9723255362
 20
-116.6645201436
 10
489.0724656501
 20
-120.6453014406
 10
488.9723255362
 20
-124.5716508631
 10
488.6721464409
 20
-128.4341094916
 10
488.1726515218
 20
-132.2233723248
 10
487.475044106
 20
-135.9303106967
 10
486.5810047908
 20
-139.5459942681
 10
485.4926873953
 20
-143.0617125406
 10
484.2127137714
 20
-146.4689958408
 10
482.7441674876
 20
-149.7596357249
 10
481.0905864007
 20
-152.9257047532
 10
479.2559541322
 20
-155.9595755881
 10
477.244690472
 20
-158.8539393689
 10
475.0616407304
 20
-161.6018233199
 10
472.7120640655
 20
-164.1966075479
 10
470.2016208133
 20
-166.6320409904
 10
467.5363588513
 20
-168.9022564749
 10
464.7226990292
 20
-171.0017848536
 10
461.7674196999
 20
-172.9255681785
 10
458.6776403902
 20
-174.6689718873
 10
455.460804649
 20
-176.2277959676
 10
452.1246621155
 20
-177.5982850757
 10
448.6772498491
 20
-178.7771375833
 10
445.126872968
 20
-179.7615135315
 10
441.4820846411
 20
-180.5490414724
 10
437.7516654827
 20
-181.1378241821
 10
433.9446023993
 20
-181.5264432316
 10
430.0700669393
 20
-181.7139624036
 10
426.137393198
 20
-181.6999299479
 10
422.156055331
 20
-181.48437967
 10
420.7945056284
 20
-181.3654074945
  0
LWPOLYLINE
  5
CB
330
1F
100
AcDbEntity
  8
0
  6
Continuous
 62
     7
370
    25
100
AcDbPolyline
 90
        3
 70
   128
 43
0.0
 10
323.0075634173
 20
-81.1770152876
 10
322.9019988887
 20
-79.437294537
 10
322.8018587748
 20
-75.45651324
  0
ENDSEC
  0
SECTION
  2
OBJECTS
  0
DICTIONARY
  5
C
330
0
100
AcDbDictionary
281
     1
  3
ACAD_GROUP
350
D
  3
ACAD_LAYOUT
350
1A
  3
ACAD_MLINESTYLE
350
17
  3
ACAD_PLOTSETTINGS
350
19
  3
ACAD_PLOTSTYLENAME
350
E
  3
ACAD_SCALELIST
350
47
  0
DICTIONARY
  5
D
102
{ACAD_REACTORS
330
C
102
}
330
C
100
AcDbDictionary
281
     1
  0
DICTIONARY
  5
1A
102
{ACAD_REACTORS
330
C
102
}
330
C
100
AcDbDictionary
281
     1
  3
Layout1
350
1E
  3
Layout2
350
26
  3
Model
350
22
  0
DICTIONARY
  5
17
102
{ACAD_REACTORS
330
C
102
}
330
C
100
AcDbDictionary
281
     1
  3
Standard
350
18
  0
DICTIONARY
  5
19
102
{ACAD_REACTORS
330
C
102
}
330
C
100
AcDbDictionary
281
     1
  0
ACDBDICTIONARYWDFLT
  5
E
102
{ACAD_REACTORS
330
C
102
}
330
C
100
AcDbDictionary
281
     1
  3
Normal
350
F
100
AcDbDictionaryWithDefault
340
F
  0
DICTIONARY
  5
47
102
{ACAD_REACTORS
330
C
102
}
330
C
100
AcDbDictionary
281
     1
  3
A0
350
48
  3
A1
350
49
  3
A2
350
4A
  3
A3
350
4B
  3
A4
350
4C
  3
A5
350
4D
  3
A6
350
4E
  3
A7
350
4F
  3
A8
350
50
  3
A9
350
51
  3
B0
350
52
  3
B1
350
53
  3
B2
350
54
  3
B3
350
55
  3
B4
350
56
  3
B5
350
57
  3
B6
350
58
  3
B7
350
59
  3
B8
350
5A
  3
B9
350
5B
  3
C0
350
5C
  3
C1
350
5D
  3
C2
350
5E
  3
C3
350
5F
  3
C4
350
60
  3
C5
350
61
  3
C6
350
62
  3
C7
350
63
  3
C8
350
64
  3
C9
350
65
  3
D0
350
66
  3
D1
350
67
  3
D2
350
68
  0
LAYOUT
  5
1E
102
{ACAD_REACTORS
330
1A
102
}
330
1A
100
AcDbPlotSettings
  1

  2
none_device
  4

  6

 40
0.0
 41
0.0
 42
0.0
 43
0.0
 44
0.0
 45
0.0
 46
0.0
 47
0.0
 48
0.0
 49
0.0
140
0.0
141
0.0
142
1.0
143
1.0
 70
   688
 72
     1
 73
     0
 74
     5
  7

 75
    16
147
1.0
148
0.0
149
0.0
100
AcDbLayout
  1
Layout1
 70
     1
 71
     1
 10
0.0
 20
0.0
 11
420.0
 21
297.0
 12
0.0
 22
0.0
 32
0.0
 14
1.0000000000E+20
 24
1.0000000000E+20
 34
1.0000000000E+20
 15
-1.0000000000E+20
 25
-1.0000000000E+20
 35
-1.0000000000E+20
146
0.0
 13
0.0
 23
0.0
 33
0.0
 16
1.0
 26
0.0
 36
0.0
 17
0.0
 27
1.0
 37
0.0
 76
     0
330
1B
  0
LAYOUT
  5
26
102
{ACAD_REACTORS
330
1A
102
}
330
1A
100
AcDbPlotSettings
  1

  2
none_device
  4

  6

 40
0.0
 41
0.0
 42
0.0
 43
0.0
 44
0.0
 45
0.0
 46
0.0
 47
0.0
 48
0.0
 49
0.0
140
0.0
141
0.0
142
1.0
143
1.0
 70
   688
 72
     1
 73
     0
 74
     5
  7

 75
    16
147
1.0
148
0.0
149
0.0
100
AcDbLayout
  1
Layout2
 70
     1
 71
     2
 10
0.0
 20
0.0
 11
0.0
 21
0.0
 12
0.0
 22
0.0
 32
0.0
 14
0.0
 24
0.0
 34
0.0
 15
0.0
 25
0.0
 35
0.0
146
0.0
 13
0.0
 23
0.0
 33
0.0
 16
1.0
 26
0.0
 36
0.0
 17
0.0
 27
1.0
 37
0.0
 76
     0
330
23
  0
LAYOUT
  5
22
102
{ACAD_REACTORS
330
1A
102
}
330
1A
100
AcDbPlotSettings
  1

  2
none_device
  4
Letter_(8.50_x_11.00_Inches)
  6

 40
6.35
 41
6.35
 42
6.35000508
 43
6.35000508
 44
215.9
 45
279.4
 46
0.0
 47
0.0
 48
0.0
 49
0.0
140
0.0
141
0.0
142
1.0
143
1.0
 70
  1712
 72
     1
 73
     0
 74
     0
  7

 75
     0
147
1.0
148
0.0
149
0.0
100
AcDbLayout
  1
Model
 70
     1
 71
     0
 10
0.0
 20
0.0
 11
279.4
 21
215.9
 12
0.0
 22
0.0
 32
0.0
 14
0.0
 24
0.0
 34
0.0
 15
279.4
 25
215.9
 35
0.0
146
0.0
 13
0.0
 23
0.0
 33
0.0
 16
1.0
 26
0.0
 36
0.0
 17
0.0
 27
1.0
 37
0.0
 76
     0
330
1F
331
29
  0
MLINESTYLE
  5
18
102
{ACAD_REACTORS
330
17
102
}
330
17
100
AcDbMlineStyle
  2
Standard
 70
     0
  3

 62
   256
 51
90.0
 52
90.0
 71
     2
 49
0.5
 62
   256
  6
BYLAYER
 49
-0.5
 62
   256
  6
BYLAYER
  0
ACDBPLACEHOLDER
  5
F
102
{ACAD_REACTORS
330
E
102
}
330
E
  0
SCALE
  5
48
102
{ACAD_REACTORS
330
47
102
}
330
47
100
AcDbScale
 70
     0
300
1:1
140
1.0
141
1.0
290
     1
  0
SCALE
  5
49
102
{ACAD_REACTORS
330
47
102
}
330
47
100
AcDbScale
 70
     0
300
1:2
140
1.0
141
2.0
290
     0
  0
SCALE
  5
4A
102
{ACAD_REACTORS
330
47
102
}
330
47
100
AcDbScale
 70
     0
300
1:4
140
1.0
141
4.0
290
     0
  0
SCALE
  5
4B
102
{ACAD_REACTORS
330
47
102
}
330
47
100
AcDbScale
 70
     0
300
1:5
140
1.0
141
5.0
290
     0
  0
SCALE
  5
4C
102
{ACAD_REACTORS
330
47
102
}
330
47
100
AcDbScale
 70
     0
300
1:8
140
1.0
141
8.0
290
     0
  0
SCALE
  5
4D
102
{ACAD_REACTORS
330
47
102
}
330
47
100
AcDbScale
 70
     0
300
1:10
140
1.0
141
10.0
290
     0
  0
SCALE
  5
4E
102
{ACAD_REACTORS
330
47
102
}
330
47
100
AcDbScale
 70
     0
300
1:16
140
1.0
141
16.0
290
     0
  0
SCALE
  5
4F
102
{ACAD_REACTORS
330
47
102
}
330
47
100
AcDbScale
 70
     0
300
1:20
140
1.0
141
20.0
290
     0
  0
SCALE
  5
50
102
{ACAD_REACTORS
330
47
102
}
330
47
100
AcDbScale
 70
     0
300
1:30
140
1.0
141
30.0
290
     0
  0
SCALE
  5
51
102
{ACAD_REACTORS
330
47
102
}
330
47
100
AcDbScale
 70
     0
300
1:40
140
1.0
141
40.0
290
     0
  0
SCALE
  5
52
102
{ACAD_REACTORS
330
47
102
}
330
47
100
AcDbScale
 70
     0
300
1:50
140
1.0
141
50.0
290
     0
  0
SCALE
  5
53
102
{ACAD_REACTORS
330
47
102
}
330
47
100
AcDbScale
 70
     0
300
1:100
140
1.0
141
100.0
290
     0
  0
SCALE
  5
54
102
{ACAD_REACTORS
330
47
102
}
330
47
100
AcDbScale
 70
     0
300
2:1
140
2.0
141
1.0
290
     0
  0
SCALE
  5
55
102
{ACAD_REACTORS
330
47
102
}
330
47
100
AcDbScale
 70
     0
300
4:1
140
4.0
141
1.0
290
     0
  0
SCALE
  5
56
102
{ACAD_REACTORS
330
47
102
}
330
47
100
AcDbScale
 70
     0
300
8:1
140
8.0
141
1.0
290
     0
  0
SCALE
  5
57
102
{ACAD_REACTORS
330
47
102
}
330
47
100
AcDbScale
 70
     0
300
10:1
140
10.0
141
1.0
290
     0
  0
SCALE
  5
58
102
{ACAD_REACTORS
330
47
102
}
330
47
100
AcDbScale
 70
     0
300
100:1
140
100.0
141
1.0
290
     0
  0
SCALE
  5
59
102
{ACAD_REACTORS
330
47
102
}
330
47
100
AcDbScale
 70
     0
300
1/128" = 1'-0"
140
0.0078125
141
12.0
290
     0
  0
SCALE
  5
5A
102
{ACAD_REACTORS
330
47
102
}
330
47
100
AcDbScale
 70
     0
300
1/64" = 1'-0"
140
0.015625
141
12.0
290
     0
  0
SCALE
  5
5B
102
{ACAD_REACTORS
330
47
102
}
330
47
100
AcDbScale
 70
     0
300
1/32" = 1'-0"
140
0.03125
141
12.0
290
     0
  0
SCALE
  5
5C
102
{ACAD_REACTORS
330
47
102
}
330
47
100
AcDbScale
 70
     0
300
1/16" = 1'-0"
140
0.0625
141
12.0
290
     0
  0
SCALE
  5
5D
102
{ACAD_REACTORS
330
47
102
}
330
47
100
AcDbScale
 70
     0
300
3/32" = 1'-0"
140
0.09375
141
12.0
290
     0
  0
SCALE
  5
5E
102
{ACAD_REACTORS
330
47
102
}
330
47
100
AcDbScale
 70
     0
300
1/8" = 1'-0"
140
0.125
141
12.0
290
     0
  0
SCALE
  5
5F
102
{ACAD_REACTORS
330
47
102
}
330
47
100
AcDbScale
 70
     0
300
3/16" = 1'-0"
140
0.1875
141
12.0
290
     0
  0
SCALE
  5
60
102
{ACAD_REACTORS
330
47
102
}
330
47
100
AcDbScale
 70
     0
300
1/4" = 1'-0"
140
0.25
141
12.0
290
     0
  0
SCALE
  5
61
102
{ACAD_REACTORS
330
47
102
}
330
47
100
AcDbScale
 70
     0
300
3/8" = 1'-0"
140
0.375
141
12.0
290
     0
  0
SCALE
  5
62
102
{ACAD_REACTORS
330
47
102
}
330
47
100
AcDbScale
 70
     0
300
1/2" = 1'-0"
140
0.5
141
12.0
290
     0
  0
SCALE
  5
63
102
{ACAD_REACTORS
330
47
102
}
330
47
100
AcDbScale
 70
     0
300
3/4" = 1'-0"
140
0.75
141
12.0
290
     0
  0
SCALE
  5
64
102
{ACAD_REACTORS
330
47
102
}
330
47
100
AcDbScale
 70
     0
300
1" = 1'-0"
140
1.0
141
12.0
290
     0
  0
SCALE
  5
65
102
{ACAD_REACTORS
330
47
102
}
330
47
100
AcDbScale
 70
     0
300
1-1/2" = 1'-0"
140
1.5
141
12.0
290
     0
  0
SCALE
  5
66
102
{ACAD_REACTORS
330
47
102
}
330
47
100
AcDbScale
 70
     0
300
3" = 1'-0"
140
3.0
141
12.0
290
     0
  0
SCALE
  5
67
102
{ACAD_REACTORS
330
47
102
}
330
47
100
AcDbScale
 70
     0
300
6" = 1'-0"
140
6.0
141
12.0
290
     0
  0
SCALE
  5
68
102
{ACAD_REACTORS
330
47
102
}
330
47
100
AcDbScale
 70
     0
300
1'-0" = 1'-0"
140
12.0
141
12.0
290
     0
  0
ENDSEC
  0
EOF
